ISO-10303-21;
HEADER;
FILE_DESCRIPTION (( 'STEP AP203' ),
    '1' );
FILE_NAME ('51025-240S2.STEP',
    '2016-05-20T08:55:47',
    ( '' ),
    ( '' ),
    'SwSTEP 2.0',
    'SolidWorks 2015',
    '' );
FILE_SCHEMA (( 'CONFIG_CONTROL_DESIGN' ));
ENDSEC;

DATA;
#1 = CARTESIAN_POINT ( 'NONE',  ( 6.100000000000000500, 1.589454642411314700, -7.470345474798852300E-016 ) ) ;
#2 = CYLINDRICAL_SURFACE ( 'NONE', #62, 6.099999999999999600 ) ;
#3 = AXIS2_PLACEMENT_3D ( 'NONE', #274, #179, #49 ) ;
#4 = APPROVAL_PERSON_ORGANIZATION ( #141, #139, #82 ) ;
#5 = VERTEX_POINT ( 'NONE', #46 ) ;
#6 = CARTESIAN_POINT ( 'NONE',  ( 0.0000000000000000000, 12.50000000000000000, -6.099999999999999600 ) ) ;
#7 = PERSON ( 'UNSPECIFIED', 'UNSPECIFIED', 'UNSPECIFIED', ('UNSPECIFIED'), ('UNSPECIFIED'), ('UNSPECIFIED') ) ;
#8 = DIRECTION ( 'NONE',  ( 0.0000000000000000000, 1.000000000000000000, 0.0000000000000000000 ) ) ;
#9 = APPROVAL_PERSON_ORGANIZATION ( #166, #83, #288 ) ;
#10 = CIRCLE ( 'NONE', #3, 6.099999999999999600 ) ;
#11 = CARTESIAN_POINT ( 'NONE',  ( 0.0000000000000000000, 0.0000000000000000000, 0.0000000000000000000 ) ) ;
#12 = FACE_OUTER_BOUND ( 'NONE', #67, .T. ) ;
#13 = ORIENTED_EDGE ( 'NONE', *, *, #131, .F. ) ;
#14 = DIRECTION ( 'NONE',  ( -1.224646799147353200E-016, 0.0000000000000000000, -1.000000000000000000 ) ) ;
#15 = CARTESIAN_POINT ( 'NONE',  ( 7.470345474798854300E-016, 12.50000000000000000, 6.099999999999999600 ) ) ;
#16 = DIRECTION ( 'NONE',  ( 1.000000000000000000, -0.0000000000000000000, -0.0000000000000000000 ) ) ;
#17 = DATE_AND_TIME ( #80, #130 ) ;
#18 = EDGE_CURVE ( 'NONE', #78, #5, #69, .T. ) ;
#19 = CYLINDRICAL_SURFACE ( 'NONE', #145, 6.099999999999999600 ) ;
#20 = PRODUCT ( '51025-240S2', '51025-240S2', '', ( #87 ) ) ;
#21 = DATE_TIME_ROLE ( 'classification_date' ) ;
#22 = SPHERICAL_SURFACE ( 'NONE', #162, 12.50000000000000000 ) ;
#23 = DATE_AND_TIME ( #187, #102 ) ;
#24 = FACE_OUTER_BOUND ( 'NONE', #181, .T. ) ;
#25 = AXIS2_PLACEMENT_3D ( 'NONE', #284, #8, #254 ) ;
#26 = EDGE_CURVE ( 'NONE', #35, #57, #210, .T. ) ;
#27 = CARTESIAN_POINT ( 'NONE',  ( 2.814426057912912900E-015, 12.50000000000000000, 0.0000000000000000000 ) ) ;
#28 = CARTESIAN_POINT ( 'NONE',  ( -6.099999999999997900, 1.589454642411314700, 0.0000000000000000000 ) ) ;
#29 = VERTEX_POINT ( 'NONE', #28 ) ;
#30 = CALENDAR_DATE ( 2016, 20, 5 ) ;
#31 = UNCERTAINTY_MEASURE_WITH_UNIT (LENGTH_MEASURE( 1.000000000000000100E-005 ), #79, 'distance_accuracy_value', 'NONE');
#32 = ORIENTED_EDGE ( 'NONE', *, *, #214, .T. ) ;
#33 = APPROVAL_DATE_TIME ( #164, #139 ) ;
#34 = ORIENTED_EDGE ( 'NONE', *, *, #71, .T. ) ;
#35 = VERTEX_POINT ( 'NONE', #171 ) ;
#36 = AXIS2_PLACEMENT_3D ( 'NONE', #168, #263, #260 ) ;
#37 = CARTESIAN_POINT ( 'NONE',  ( 7.470345474798854300E-016, 1.589454642411313800, 6.099999999999999600 ) ) ;
#38 = CYLINDRICAL_SURFACE ( 'NONE', #128, 6.099999999999999600 ) ;
#39 = ORIENTED_EDGE ( 'NONE', *, *, #96, .F. ) ;
#40 = ORIENTED_EDGE ( 'NONE', *, *, #217, .F. ) ;
#41 = ORIENTED_EDGE ( 'NONE', *, *, #258, .F. ) ;
#42 = DIRECTION ( 'NONE',  ( -1.000000000000000000, 0.0000000000000000000, 1.224646799147353200E-016 ) ) ;
#43 = AXIS2_PLACEMENT_3D ( 'NONE', #118, #129, #267 ) ;
#44 = CARTESIAN_POINT ( 'NONE',  ( 0.0000000000000000000, 12.50000000000000000, 0.0000000000000000000 ) ) ;
#45 = PRODUCT_RELATED_PRODUCT_CATEGORY ( 'detail', '', ( #20 ) ) ;
#46 = CARTESIAN_POINT ( 'NONE',  ( 7.470345474798854300E-016, 12.50000000000000000, 6.099999999999999600 ) ) ;
#47 = ORIENTED_EDGE ( 'NONE', *, *, #219, .T. ) ;
#48 =( NAMED_UNIT ( * ) SI_UNIT ( $, .STERADIAN. ) SOLID_ANGLE_UNIT ( ) );
#49 = DIRECTION ( 'NONE',  ( 0.0000000000000000000, 0.0000000000000000000, 1.000000000000000000 ) ) ;
#50 = APPROVAL_STATUS ( 'not_yet_approved' ) ;
#51 = ADVANCED_FACE ( 'NONE', ( #24 ), #97, .F. ) ;
#52 = CC_DESIGN_PERSON_AND_ORGANIZATION_ASSIGNMENT ( #95, #104, ( #20 ) ) ;
#53 = CARTESIAN_POINT ( 'NONE',  ( 10.91054535758868800, 6.400000000000001200, -1.336156444912299800E-015 ) ) ;
#54 = AXIS2_PLACEMENT_3D ( 'NONE', #281, #264, #222 ) ;
#55 = DIRECTION ( 'NONE',  ( 0.0000000000000000000, 0.0000000000000000000, 1.000000000000000000 ) ) ;
#56 = ORIENTED_EDGE ( 'NONE', *, *, #88, .T. ) ;
#57 = VERTEX_POINT ( 'NONE', #156 ) ;
#58 = CARTESIAN_POINT ( 'NONE',  ( 10.91054535758869000, 12.50000000000000000, 6.099999999999999600 ) ) ;
#59 = DIRECTION ( 'NONE',  ( -1.000000000000000000, 0.0000000000000000000, 1.224646799147353200E-016 ) ) ;
#60 = DIRECTION ( 'NONE',  ( 1.000000000000000000, -0.0000000000000000000, -0.0000000000000000000 ) ) ;
#61 = SECURITY_CLASSIFICATION ( '', '', #285 ) ;
#62 = AXIS2_PLACEMENT_3D ( 'NONE', #265, #16, #204 ) ;
#63 = EDGE_CURVE ( 'NONE', #5, #161, #89, .T. ) ;
#64 = ORIENTED_EDGE ( 'NONE', *, *, #214, .F. ) ;
#65 = APPROVAL_STATUS ( 'not_yet_approved' ) ;
#66 = CIRCLE ( 'NONE', #43, 6.099999999999999600 ) ;
#67 = EDGE_LOOP ( 'NONE', ( #98, #202, #237, #249, #212 ) ) ;
#68 =( GEOMETRIC_REPRESENTATION_CONTEXT ( 3 ) GLOBAL_UNCERTAINTY_ASSIGNED_CONTEXT ( ( #31 ) ) GLOBAL_UNIT_ASSIGNED_CONTEXT ( ( #79, #190, #48 ) ) REPRESENTATION_CONTEXT ( 'NONE', 'WORKASPACE' ) );
#69 =( BOUNDED_CURVE ( )  B_SPLINE_CURVE ( 3, ( #147, #269, #193, #255 ),
 .UNSPECIFIED., .F., .T. ) 
 B_SPLINE_CURVE_WITH_KNOTS ( ( 4, 4 ),
 ( 1.570796326794896800, 4.712388980384689700 ),
 .UNSPECIFIED. ) 
 CURVE ( )  GEOMETRIC_REPRESENTATION_ITEM ( )  RATIONAL_B_SPLINE_CURVE ( ( 1.000000000000000000, 0.3333333333333333700, 0.3333333333333333700, 1.000000000000000000 ) ) 
 REPRESENTATION_ITEM ( '' )  );
#70 = CC_DESIGN_DATE_AND_TIME_ASSIGNMENT ( #140, #270, ( #246 ) ) ;
#71 = EDGE_CURVE ( 'NONE', #78, #143, #232, .T. ) ;
#72 = DIRECTION ( 'NONE',  ( -1.000000000000000000, 0.0000000000000000000, 0.0000000000000000000 ) ) ;
#73 = VECTOR ( 'NONE', #206, 1000.000000000000000 ) ;
#74 = AXIS2_PLACEMENT_3D ( 'NONE', #27, #286, #59 ) ;
#75 = CARTESIAN_POINT ( 'NONE',  ( 0.0000000000000000000, 12.50000000000000000, -6.099999999999999600 ) ) ;
#76 = EDGE_CURVE ( 'NONE', #244, #155, #218, .T. ) ;
#77 = LINE ( 'NONE', #6, #137 ) ;
#78 = VERTEX_POINT ( 'NONE', #122 ) ;
#79 =( LENGTH_UNIT ( ) NAMED_UNIT ( * ) SI_UNIT ( .MILLI., .METRE. ) );
#80 = CALENDAR_DATE ( 2016, 20, 5 ) ;
#81 = DIRECTION ( 'NONE',  ( 1.000000000000000000, 0.0000000000000000000, 0.0000000000000000000 ) ) ;
#82 = APPROVAL_ROLE ( '' ) ;
#83 = APPROVAL ( #50, 'UNSPECIFIED' ) ;
#84 = LOCAL_TIME ( 10, 55, 47.00000000000000000, #94 ) ;
#85 = PRODUCT_DEFINITION_FORMATION_WITH_SPECIFIED_SOURCE ( 'ANY', '', #20, .NOT_KNOWN. ) ;
#86 = COORDINATED_UNIVERSAL_TIME_OFFSET ( 1, 0, .AHEAD. ) ;
#87 = MECHANICAL_CONTEXT ( 'NONE', #290, 'mechanical' ) ;
#88 = EDGE_CURVE ( 'NONE', #161, #93, #239, .T. ) ;
#89 = LINE ( 'NONE', #192, #277 ) ;
#90 = FACE_OUTER_BOUND ( 'NONE', #247, .T. ) ;
#91 = LOCAL_TIME ( 10, 55, 47.00000000000000000, #209 ) ;
#92 = PERSON_AND_ORGANIZATION ( #7, #180 ) ;
#93 = VERTEX_POINT ( 'NONE', #1 ) ;
#94 = COORDINATED_UNIVERSAL_TIME_OFFSET ( 1, 0, .AHEAD. ) ;
#95 = PERSON_AND_ORGANIZATION ( #7, #180 ) ;
#96 = EDGE_CURVE ( 'NONE', #29, #161, #170, .T. ) ;
#97 = CYLINDRICAL_SURFACE ( 'NONE', #36, 6.099999999999999600 ) ;
#98 = ORIENTED_EDGE ( 'NONE', *, *, #224, .F. ) ;
#99 = EDGE_CURVE ( 'NONE', #5, #244, #126, .T. ) ;
#100 = CALENDAR_DATE ( 2016, 20, 5 ) ;
#101 = CC_DESIGN_PERSON_AND_ORGANIZATION_ASSIGNMENT ( #199, #234, ( #61 ) ) ;
#102 = LOCAL_TIME ( 10, 55, 47.00000000000000000, #201 ) ;
#103 = DIRECTION ( 'NONE',  ( 0.0000000000000000000, 1.000000000000000000, 0.0000000000000000000 ) ) ;
#104 = PERSON_AND_ORGANIZATION_ROLE ( 'design_owner' ) ;
#105 = CC_DESIGN_PERSON_AND_ORGANIZATION_ASSIGNMENT ( #114, #240, ( #246 ) ) ;
#106 = ORIENTED_EDGE ( 'NONE', *, *, #88, .F. ) ;
#107 = DIRECTION ( 'NONE',  ( 0.0000000000000000000, 0.0000000000000000000, 1.000000000000000000 ) ) ;
#108 = CIRCLE ( 'NONE', #74, 12.50000000000000000 ) ;
#109 = CLOSED_SHELL ( 'NONE', ( #253, #51, #261, #183, #271, #242 ) ) ;
#110 = CARTESIAN_POINT ( 'NONE',  ( 2.814426057912912900E-015, 12.50000000000000000, 0.0000000000000000000 ) ) ;
#111 = CARTESIAN_POINT ( 'NONE',  ( -17.25340546095175800, 12.50000000000000000, 0.0000000000000000000 ) ) ;
#112 = AXIS2_PLACEMENT_3D ( 'NONE', #160, #113, #81 ) ;
#113 = DIRECTION ( 'NONE',  ( -0.0000000000000000000, 0.0000000000000000000, 1.000000000000000000 ) ) ;
#114 = PERSON_AND_ORGANIZATION ( #7, #180 ) ;
#115 = CIRCLE ( 'NONE', #172, 6.099999999999999600 ) ;
#116 = DIRECTION ( 'NONE',  ( 0.0000000000000000000, -1.000000000000000000, 0.0000000000000000000 ) ) ;
#117 = ORIENTED_EDGE ( 'NONE', *, *, #149, .F. ) ;
#118 = CARTESIAN_POINT ( 'NONE',  ( 10.91054535758869000, 12.50000000000000000, 0.0000000000000000000 ) ) ;
#119 = ORIENTED_EDGE ( 'NONE', *, *, #99, .F. ) ;
#120 = APPROVAL_STATUS ( 'not_yet_approved' ) ;
#121 = DIRECTION ( 'NONE',  ( 0.0000000000000000000, 8.531426931033478400E-016, 1.000000000000000000 ) ) ;
#122 = CARTESIAN_POINT ( 'NONE',  ( 0.0000000000000000000, 12.50000000000000000, -6.099999999999999600 ) ) ;
#123 = PERSON_AND_ORGANIZATION_ROLE ( 'creator' ) ;
#124 = SHAPE_DEFINITION_REPRESENTATION ( #205, #154 ) ;
#125 = ORIENTED_EDGE ( 'NONE', *, *, #26, .F. ) ;
#126 = LINE ( 'NONE', #198, #185 ) ;
#127 = DIRECTION ( 'NONE',  ( 0.0000000000000000000, 0.0000000000000000000, -1.000000000000000000 ) ) ;
#128 = AXIS2_PLACEMENT_3D ( 'NONE', #111, #235, #127 ) ;
#129 = DIRECTION ( 'NONE',  ( 1.000000000000000000, -0.0000000000000000000, -0.0000000000000000000 ) ) ;
#130 = LOCAL_TIME ( 10, 55, 47.00000000000000000, #173 ) ;
#131 = EDGE_CURVE ( 'NONE', #143, #57, #178, .T. ) ;
#132 = AXIS2_PLACEMENT_3D ( 'NONE', #11, #216, #225 ) ;
#133 = CARTESIAN_POINT ( 'NONE',  ( 10.91054535758869000, 12.50000000000000000, -6.099999999999999600 ) ) ;
#134 = SPHERICAL_SURFACE ( 'NONE', #279, 12.50000000000000000 ) ;
#135 = DATE_AND_TIME ( #30, #84 ) ;
#136 = CARTESIAN_POINT ( 'NONE',  ( 10.91054535758869000, 12.50000000000000000, 0.0000000000000000000 ) ) ;
#137 = VECTOR ( 'NONE', #291, 1000.000000000000000 ) ;
#138 = ORIENTED_EDGE ( 'NONE', *, *, #63, .F. ) ;
#139 = APPROVAL ( #65, 'UNSPECIFIED' ) ;
#140 = DATE_AND_TIME ( #100, #91 ) ;
#141 = PERSON_AND_ORGANIZATION ( #7, #180 ) ;
#142 = CC_DESIGN_PERSON_AND_ORGANIZATION_ASSIGNMENT ( #174, #123, ( #85 ) ) ;
#143 = VERTEX_POINT ( 'NONE', #133 ) ;
#144 = APPLICATION_CONTEXT ( 'configuration controlled 3d designs of mechanical parts and assemblies' ) ;
#145 = AXIS2_PLACEMENT_3D ( 'NONE', #44, #159, #151 ) ;
#146 = CARTESIAN_POINT ( 'NONE',  ( 0.0000000000000000000, 1.589454642411313800, -6.099999999999999600 ) ) ;
#147 = CARTESIAN_POINT ( 'NONE',  ( 0.0000000000000000000, 12.50000000000000000, -6.099999999999999600 ) ) ;
#148 = CIRCLE ( 'NONE', #241, 6.099999999999999600 ) ;
#149 = EDGE_CURVE ( 'NONE', #35, #29, #195, .T. ) ;
#150 = EDGE_CURVE ( 'NONE', #78, #191, #77, .T. ) ;
#151 = DIRECTION ( 'NONE',  ( 0.0000000000000000000, 0.0000000000000000000, -1.000000000000000000 ) ) ;
#152 = EDGE_LOOP ( 'NONE', ( #125, #287, #268, #56, #41, #266, #167 ) ) ;
#153 = CARTESIAN_POINT ( 'NONE',  ( 10.91054535758869000, 12.50000000000000000, 0.0000000000000000000 ) ) ;
#154 = ADVANCED_BREP_SHAPE_REPRESENTATION ( '51025-240S2', ( #245, #132 ), #68 ) ;
#155 = VERTEX_POINT ( 'NONE', #53 ) ;
#156 = CARTESIAN_POINT ( 'NONE',  ( 10.91054535758868800, 18.59999999999999800, -1.336156444912299800E-015 ) ) ;
#157 = ORIENTED_EDGE ( 'NONE', *, *, #63, .T. ) ;
#158 = CC_DESIGN_PERSON_AND_ORGANIZATION_ASSIGNMENT ( #227, #176, ( #85 ) ) ;
#159 = DIRECTION ( 'NONE',  ( 0.0000000000000000000, -1.000000000000000000, 0.0000000000000000000 ) ) ;
#160 = CARTESIAN_POINT ( 'NONE',  ( 2.814426057912912900E-015, 12.50000000000000000, 0.0000000000000000000 ) ) ;
#161 = VERTEX_POINT ( 'NONE', #37 ) ;
#162 = AXIS2_PLACEMENT_3D ( 'NONE', #282, #194, #231 ) ;
#163 = DIRECTION ( 'NONE',  ( 0.0000000000000000000, 0.0000000000000000000, 1.000000000000000000 ) ) ;
#164 = DATE_AND_TIME ( #272, #221 ) ;
#165 = ORIENTED_EDGE ( 'NONE', *, *, #18, .F. ) ;
#166 = PERSON_AND_ORGANIZATION ( #7, #180 ) ;
#167 = ORIENTED_EDGE ( 'NONE', *, *, #219, .F. ) ;
#168 = CARTESIAN_POINT ( 'NONE',  ( 0.0000000000000000000, 12.50000000000000000, 0.0000000000000000000 ) ) ;
#169 = APPROVAL_DATE_TIME ( #17, #83 ) ;
#170 = CIRCLE ( 'NONE', #25, 6.099999999999999600 ) ;
#171 = CARTESIAN_POINT ( 'NONE',  ( 2.049021808445817400E-015, 25.00000000000000000, 0.0000000000000000000 ) ) ;
#172 = AXIS2_PLACEMENT_3D ( 'NONE', #153, #256, #121 ) ;
#173 = COORDINATED_UNIVERSAL_TIME_OFFSET ( 1, 0, .AHEAD. ) ;
#174 = PERSON_AND_ORGANIZATION ( #7, #180 ) ;
#175 = CC_DESIGN_APPROVAL ( #248, ( #85 ) ) ;
#176 = PERSON_AND_ORGANIZATION_ROLE ( 'design_supplier' ) ;
#177 = ORIENTED_EDGE ( 'NONE', *, *, #220, .F. ) ;
#178 = CIRCLE ( 'NONE', #188, 6.099999999999999600 ) ;
#179 = DIRECTION ( 'NONE',  ( 0.0000000000000000000, 1.000000000000000000, 0.0000000000000000000 ) ) ;
#180 = ORGANIZATION ( 'UNSPECIFIED', 'UNSPECIFIED', '' ) ;
#181 = EDGE_LOOP ( 'NONE', ( #200, #157, #39, #40, #207 ) ) ;
#182 = DIRECTION ( 'NONE',  ( -0.0000000000000000000, -0.0000000000000000000, -1.000000000000000000 ) ) ;
#183 = ADVANCED_FACE ( 'NONE', ( #230 ), #22, .T. ) ;
#184 = APPROVAL_PERSON_ORGANIZATION ( #92, #248, #229 ) ;
#185 = VECTOR ( 'NONE', #252, 1000.000000000000000 ) ;
#186 = CARTESIAN_POINT ( 'NONE',  ( 0.0000000000000000000, 1.589454642411313800, 0.0000000000000000000 ) ) ;
#187 = CALENDAR_DATE ( 2016, 20, 5 ) ;
#188 = AXIS2_PLACEMENT_3D ( 'NONE', #136, #60, #55 ) ;
#189 = APPROVAL_DATE_TIME ( #135, #248 ) ;
#190 =( NAMED_UNIT ( * ) PLANE_ANGLE_UNIT ( ) SI_UNIT ( $, .RADIAN. ) );
#191 = VERTEX_POINT ( 'NONE', #146 ) ;
#192 = CARTESIAN_POINT ( 'NONE',  ( 7.470345474798854300E-016, 12.50000000000000000, 6.099999999999999600 ) ) ;
#193 = CARTESIAN_POINT ( 'NONE',  ( -12.19999999999999800, 24.69999999999999900, 6.099999999999998800 ) ) ;
#194 = DIRECTION ( 'NONE',  ( -0.0000000000000000000, -0.0000000000000000000, -1.000000000000000000 ) ) ;
#195 = CIRCLE ( 'NONE', #112, 12.50000000000000000 ) ;
#196 = FACE_OUTER_BOUND ( 'NONE', #262, .T. ) ;
#197 = CARTESIAN_POINT ( 'NONE',  ( 12.19999999999999600, 0.3000000000000051000, -6.100000000000000500 ) ) ;
#198 = CARTESIAN_POINT ( 'NONE',  ( -17.25340546095175800, 12.50000000000000000, 6.099999999999999600 ) ) ;
#199 = PERSON_AND_ORGANIZATION ( #7, #180 ) ;
#200 = ORIENTED_EDGE ( 'NONE', *, *, #18, .T. ) ;
#201 = COORDINATED_UNIVERSAL_TIME_OFFSET ( 1, 0, .AHEAD. ) ;
#202 = ORIENTED_EDGE ( 'NONE', *, *, #99, .T. ) ;
#203 = CC_DESIGN_DATE_AND_TIME_ASSIGNMENT ( #23, #21, ( #61 ) ) ;
#204 = DIRECTION ( 'NONE',  ( 0.0000000000000000000, 0.0000000000000000000, -1.000000000000000000 ) ) ;
#205 = PRODUCT_DEFINITION_SHAPE ( 'NONE', 'NONE',  #246 ) ;
#206 = DIRECTION ( 'NONE',  ( 1.000000000000000000, -0.0000000000000000000, -0.0000000000000000000 ) ) ;
#207 = ORIENTED_EDGE ( 'NONE', *, *, #150, .F. ) ;
#208 = AXIS2_PLACEMENT_3D ( 'NONE', #280, #14, #42 ) ;
#209 = COORDINATED_UNIVERSAL_TIME_OFFSET ( 1, 0, .AHEAD. ) ;
#210 = CIRCLE ( 'NONE', #208, 12.50000000000000000 ) ;
#211 = AXIS2_PLACEMENT_3D ( 'NONE', #250, #276, #163 ) ;
#212 = ORIENTED_EDGE ( 'NONE', *, *, #71, .F. ) ;
#213 = CC_DESIGN_APPROVAL ( #83, ( #246 ) ) ;
#214 = EDGE_CURVE ( 'NONE', #93, #191, #10, .T. ) ;
#215 =( BOUNDED_CURVE ( )  B_SPLINE_CURVE ( 3, ( #15, #259, #197, #75 ),
 .UNSPECIFIED., .F., .F. ) 
 B_SPLINE_CURVE_WITH_KNOTS ( ( 4, 4 ),
 ( 4.712388980384689700, 7.853981633974482800 ),
 .UNSPECIFIED. ) 
 CURVE ( )  GEOMETRIC_REPRESENTATION_ITEM ( )  RATIONAL_B_SPLINE_CURVE ( ( 1.000000000000000000, 0.3333333333333333700, 0.3333333333333333700, 1.000000000000000000 ) ) 
 REPRESENTATION_ITEM ( '' )  );
#216 = DIRECTION ( 'NONE',  ( 0.0000000000000000000, 0.0000000000000000000, 1.000000000000000000 ) ) ;
#217 = EDGE_CURVE ( 'NONE', #191, #29, #148, .T. ) ;
#218 = CIRCLE ( 'NONE', #54, 6.099999999999999600 ) ;
#219 = EDGE_CURVE ( 'NONE', #57, #244, #115, .T. ) ;
#220 = EDGE_CURVE ( 'NONE', #155, #143, #66, .T. ) ;
#221 = LOCAL_TIME ( 10, 55, 47.00000000000000000, #86 ) ;
#222 = DIRECTION ( 'NONE',  ( 0.0000000000000000000, 0.0000000000000000000, 1.000000000000000000 ) ) ;
#223 = APPLICATION_PROTOCOL_DEFINITION ( 'international standard', 'config_control_design', 1994, #144 ) ;
#224 = EDGE_CURVE ( 'NONE', #5, #78, #215, .T. ) ;
#225 = DIRECTION ( 'NONE',  ( 1.000000000000000000, 0.0000000000000000000, 0.0000000000000000000 ) ) ;
#226 = CC_DESIGN_SECURITY_CLASSIFICATION ( #61, ( #85 ) ) ;
#227 = PERSON_AND_ORGANIZATION ( #7, #180 ) ;
#228 = ORIENTED_EDGE ( 'NONE', *, *, #131, .T. ) ;
#229 = APPROVAL_ROLE ( '' ) ;
#230 = FACE_OUTER_BOUND ( 'NONE', #152, .T. ) ;
#231 = DIRECTION ( 'NONE',  ( -1.000000000000000000, 0.0000000000000000000, 0.0000000000000000000 ) ) ;
#232 = LINE ( 'NONE', #233, #73 ) ;
#233 = CARTESIAN_POINT ( 'NONE',  ( -17.25340546095175800, 12.50000000000000000, -6.099999999999999600 ) ) ;
#234 = PERSON_AND_ORGANIZATION_ROLE ( 'classification_officer' ) ;
#235 = DIRECTION ( 'NONE',  ( 1.000000000000000000, -0.0000000000000000000, -0.0000000000000000000 ) ) ;
#236 = DESIGN_CONTEXT ( 'detailed design', #144, 'design' ) ;
#237 = ORIENTED_EDGE ( 'NONE', *, *, #76, .T. ) ;
#238 = CC_DESIGN_APPROVAL ( #139, ( #61 ) ) ;
#239 = CIRCLE ( 'NONE', #211, 6.099999999999999600 ) ;
#240 = PERSON_AND_ORGANIZATION_ROLE ( 'creator' ) ;
#241 = AXIS2_PLACEMENT_3D ( 'NONE', #186, #103, #107 ) ;
#242 = ADVANCED_FACE ( 'NONE', ( #196 ), #38, .F. ) ;
#243 = ORIENTED_EDGE ( 'NONE', *, *, #217, .T. ) ;
#244 = VERTEX_POINT ( 'NONE', #58 ) ;
#245 = MANIFOLD_SOLID_BREP ( 'Schnitt-Austragung1', #109 ) ;
#246 = PRODUCT_DEFINITION ( 'UNKNOWN', '', #85, #236 ) ;
#247 = EDGE_LOOP ( 'NONE', ( #117, #251, #13, #177, #283, #32, #243 ) ) ;
#248 = APPROVAL ( #120, 'UNSPECIFIED' ) ;
#249 = ORIENTED_EDGE ( 'NONE', *, *, #220, .T. ) ;
#250 = CARTESIAN_POINT ( 'NONE',  ( 0.0000000000000000000, 1.589454642411313800, 0.0000000000000000000 ) ) ;
#251 = ORIENTED_EDGE ( 'NONE', *, *, #26, .T. ) ;
#252 = DIRECTION ( 'NONE',  ( 1.000000000000000000, -0.0000000000000000000, -0.0000000000000000000 ) ) ;
#253 = ADVANCED_FACE ( 'NONE', ( #12 ), #2, .F. ) ;
#254 = DIRECTION ( 'NONE',  ( 0.0000000000000000000, 0.0000000000000000000, 1.000000000000000000 ) ) ;
#255 = CARTESIAN_POINT ( 'NONE',  ( 7.470345474798854300E-016, 12.50000000000000000, 6.099999999999999600 ) ) ;
#256 = DIRECTION ( 'NONE',  ( 1.000000000000000000, -0.0000000000000000000, -0.0000000000000000000 ) ) ;
#257 = EDGE_LOOP ( 'NONE', ( #138, #275, #278, #64, #106 ) ) ;
#258 = EDGE_CURVE ( 'NONE', #155, #93, #108, .T. ) ;
#259 = CARTESIAN_POINT ( 'NONE',  ( 12.19999999999999600, 0.3000000000000068700, 6.100000000000004100 ) ) ;
#260 = DIRECTION ( 'NONE',  ( 0.0000000000000000000, 0.0000000000000000000, -1.000000000000000000 ) ) ;
#261 = ADVANCED_FACE ( 'NONE', ( #90 ), #134, .T. ) ;
#262 = EDGE_LOOP ( 'NONE', ( #119, #165, #34, #228, #47 ) ) ;
#263 = DIRECTION ( 'NONE',  ( 0.0000000000000000000, -1.000000000000000000, 0.0000000000000000000 ) ) ;
#264 = DIRECTION ( 'NONE',  ( 1.000000000000000000, -0.0000000000000000000, -0.0000000000000000000 ) ) ;
#265 = CARTESIAN_POINT ( 'NONE',  ( -17.25340546095175800, 12.50000000000000000, 0.0000000000000000000 ) ) ;
#266 = ORIENTED_EDGE ( 'NONE', *, *, #76, .F. ) ;
#267 = DIRECTION ( 'NONE',  ( 0.0000000000000000000, 0.0000000000000000000, 1.000000000000000000 ) ) ;
#268 = ORIENTED_EDGE ( 'NONE', *, *, #96, .T. ) ;
#269 = CARTESIAN_POINT ( 'NONE',  ( -12.19999999999999800, 24.69999999999999900, -6.100000000000000500 ) ) ;
#270 = DATE_TIME_ROLE ( 'creation_date' ) ;
#271 = ADVANCED_FACE ( 'NONE', ( #289 ), #19, .F. ) ;
#272 = CALENDAR_DATE ( 2016, 20, 5 ) ;
#273 = APPLICATION_PROTOCOL_DEFINITION ( 'international standard', 'config_control_design', 1994, #290 ) ;
#274 = CARTESIAN_POINT ( 'NONE',  ( 0.0000000000000000000, 1.589454642411313800, 0.0000000000000000000 ) ) ;
#275 = ORIENTED_EDGE ( 'NONE', *, *, #224, .T. ) ;
#276 = DIRECTION ( 'NONE',  ( 0.0000000000000000000, 1.000000000000000000, 0.0000000000000000000 ) ) ;
#277 = VECTOR ( 'NONE', #116, 1000.000000000000000 ) ;
#278 = ORIENTED_EDGE ( 'NONE', *, *, #150, .T. ) ;
#279 = AXIS2_PLACEMENT_3D ( 'NONE', #110, #182, #72 ) ;
#280 = CARTESIAN_POINT ( 'NONE',  ( 2.814426057912912900E-015, 12.50000000000000000, 0.0000000000000000000 ) ) ;
#281 = CARTESIAN_POINT ( 'NONE',  ( 10.91054535758869000, 12.50000000000000000, 0.0000000000000000000 ) ) ;
#282 = CARTESIAN_POINT ( 'NONE',  ( 2.814426057912912900E-015, 12.50000000000000000, 0.0000000000000000000 ) ) ;
#283 = ORIENTED_EDGE ( 'NONE', *, *, #258, .T. ) ;
#284 = CARTESIAN_POINT ( 'NONE',  ( 0.0000000000000000000, 1.589454642411313800, 0.0000000000000000000 ) ) ;
#285 = SECURITY_CLASSIFICATION_LEVEL ( 'unclassified' ) ;
#286 = DIRECTION ( 'NONE',  ( -1.224646799147353200E-016, 0.0000000000000000000, -1.000000000000000000 ) ) ;
#287 = ORIENTED_EDGE ( 'NONE', *, *, #149, .T. ) ;
#288 = APPROVAL_ROLE ( '' ) ;
#289 = FACE_OUTER_BOUND ( 'NONE', #257, .T. ) ;
#290 = APPLICATION_CONTEXT ( 'configuration controlled 3d designs of mechanical parts and assemblies' ) ;
#291 = DIRECTION ( 'NONE',  ( 0.0000000000000000000, -1.000000000000000000, 0.0000000000000000000 ) ) ;
ENDSEC;
END-ISO-10303-21;
