ISO-10303-21;
HEADER;
FILE_DESCRIPTION (( 'STEP AP203' ),
    '1' );
FILE_NAME ('51050-240.step',
    '2023-09-08T07:10:43',
    ( '' ),
    ( '' ),
    'SwSTEP 2.0',
    'SolidWorks 2018',
    '' );
FILE_SCHEMA (( 'CONFIG_CONTROL_DESIGN' ));
ENDSEC;

DATA;
#1 = CC_DESIGN_PERSON_AND_ORGANIZATION_ASSIGNMENT ( #62, #29, ( #10 ) ) ;
#2 = DIRECTION ( 'NONE',  ( 0.000000000000000000, 0.000000000000000000, -1.000000000000000000 ) ) ;
#3 = CARTESIAN_POINT ( 'NONE',  ( 0.000000000000000000, 25.99999999999999645, 0.000000000000000000 ) ) ;
#4 = CARTESIAN_POINT ( 'NONE',  ( 0.000000000000000000, 0.2322790713396444273, 3.399999999999987033 ) ) ;
#5 = CYLINDRICAL_SURFACE ( 'NONE', #30, 3.399999999999987033 ) ;
#6 = AXIS2_PLACEMENT_3D ( 'NONE', #43, #126, #86 ) ;
#7 = APPLICATION_PROTOCOL_DEFINITION ( 'international standard', 'config_control_design', 1994, #129 ) ;
#8 = CC_DESIGN_PERSON_AND_ORGANIZATION_ASSIGNMENT ( #78, #115, ( #10 ) ) ;
#9 = APPROVAL_DATE_TIME ( #80, #24 ) ;
#10 = PRODUCT_DEFINITION_FORMATION_WITH_SPECIFIED_SOURCE ( 'ANY', '', #114, .NOT_KNOWN. ) ;
#11 = SPHERICAL_SURFACE ( 'NONE', #19, 25.00000000000000000 ) ;
#12 = ORIENTED_EDGE ( 'NONE', *, *, #36, .F. ) ;
#13 =( LENGTH_UNIT ( ) NAMED_UNIT ( * ) SI_UNIT ( .MILLI., .METRE. ) );
#14 = DIRECTION ( 'NONE',  ( 1.000000000000000000, 0.000000000000000000, 0.000000000000000000 ) ) ;
#15 = CC_DESIGN_APPROVAL ( #107, ( #96 ) ) ;
#16 = APPLICATION_CONTEXT ( 'configuration controlled 3d designs of mechanical parts and assemblies' ) ;
#17 = PERSON_AND_ORGANIZATION ( #55, #44 ) ;
#18 = ORIENTED_EDGE ( 'NONE', *, *, #36, .T. ) ;
#19 = AXIS2_PLACEMENT_3D ( 'NONE', #64, #23, #66 ) ;
#20 = VERTEX_POINT ( 'NONE', #111 ) ;
#21 = LOCAL_TIME ( 9, 10, 43.00000000000000000, #40 ) ;
#22 = CC_DESIGN_SECURITY_CLASSIFICATION ( #96, ( #10 ) ) ;
#23 = DIRECTION ( 'NONE',  ( -0.000000000000000000, 0.000000000000000000, -1.000000000000000000 ) ) ;
#24 = APPROVAL ( #58, 'UNSPECIFIED' ) ;
#25 = UNCERTAINTY_MEASURE_WITH_UNIT (LENGTH_MEASURE( 1.000000000000000082E-05 ), #13, 'distance_accuracy_value', 'NONE');
#26 = CARTESIAN_POINT ( 'NONE',  ( 0.000000000000000000, 25.99999999999999645, 0.000000000000000000 ) ) ;
#27 = APPROVAL_ROLE ( '' ) ;
#28 = CC_DESIGN_APPROVAL ( #24, ( #106 ) ) ;
#29 = PERSON_AND_ORGANIZATION_ROLE ( 'creator' ) ;
#30 = AXIS2_PLACEMENT_3D ( 'NONE', #103, #105, #2 ) ;
#31 = FACE_OUTER_BOUND ( 'NONE', #76, .T. ) ;
#32 = ADVANCED_BREP_SHAPE_REPRESENTATION ( '51050-240', ( #120, #121 ), #33 ) ;
#33 =( GEOMETRIC_REPRESENTATION_CONTEXT ( 3 ) GLOBAL_UNCERTAINTY_ASSIGNED_CONTEXT ( ( #25 ) ) GLOBAL_UNIT_ASSIGNED_CONTEXT ( ( #13, #124, #83 ) ) REPRESENTATION_CONTEXT ( 'NONE', 'WORKASPACE' ) );
#34 = DIRECTION ( 'NONE',  ( 0.000000000000000000, 0.000000000000000000, 1.000000000000000000 ) ) ;
#35 = APPLICATION_PROTOCOL_DEFINITION ( 'international standard', 'config_control_design', 1994, #16 ) ;
#36 = EDGE_CURVE ( 'NONE', #20, #20, #108, .T. ) ;
#37 = CONICAL_SURFACE ( 'NONE', #135, 3.399999999999985256, 1.029744258676652979 ) ;
#38 = SHAPE_DEFINITION_REPRESENTATION ( #93, #32 ) ;
#39 = APPROVAL_PERSON_ORGANIZATION ( #92, #24, #27 ) ;
#40 = COORDINATED_UNIVERSAL_TIME_OFFSET ( 1, 0, .AHEAD. ) ;
#41 = CALENDAR_DATE ( 2023, 8, 9 ) ;
#42 = LOCAL_TIME ( 9, 10, 43.00000000000000000, #109 ) ;
#43 = CARTESIAN_POINT ( 'NONE',  ( 0.000000000000000000, 0.2322790713396444273, 0.000000000000000000 ) ) ;
#44 = ORGANIZATION ( 'UNSPECIFIED', 'UNSPECIFIED', '' ) ;
#45 = CC_DESIGN_PERSON_AND_ORGANIZATION_ASSIGNMENT ( #60, #47, ( #106 ) ) ;
#46 = CLOSED_SHELL ( 'NONE', ( #51, #75, #65 ) ) ;
#47 = PERSON_AND_ORGANIZATION_ROLE ( 'creator' ) ;
#48 = APPROVAL ( #69, 'UNSPECIFIED' ) ;
#49 = DATE_AND_TIME ( #41, #42 ) ;
#50 = CARTESIAN_POINT ( 'NONE',  ( 0.000000000000000000, 0.000000000000000000, 0.000000000000000000 ) ) ;
#51 = ADVANCED_FACE ( 'NONE', ( #100 ), #11, .T. ) ;
#52 = EDGE_LOOP ( 'NONE', ( #18 ) ) ;
#53 = CALENDAR_DATE ( 2023, 8, 9 ) ;
#54 = DATE_TIME_ROLE ( 'classification_date' ) ;
#55 = PERSON ( 'UNSPECIFIED', 'UNSPECIFIED', 'UNSPECIFIED', ('UNSPECIFIED'), ('UNSPECIFIED'), ('UNSPECIFIED') ) ;
#56 = APPROVAL_STATUS ( 'not_yet_approved' ) ;
#57 = MECHANICAL_CONTEXT ( 'NONE', #129, 'mechanical' ) ;
#58 = APPROVAL_STATUS ( 'not_yet_approved' ) ;
#59 = EDGE_LOOP ( 'NONE', ( #63 ) ) ;
#60 = PERSON_AND_ORGANIZATION ( #55, #44 ) ;
#61 = CC_DESIGN_PERSON_AND_ORGANIZATION_ASSIGNMENT ( #72, #77, ( #96 ) ) ;
#62 = PERSON_AND_ORGANIZATION ( #55, #44 ) ;
#63 = ORIENTED_EDGE ( 'NONE', *, *, #125, .F. ) ;
#64 = CARTESIAN_POINT ( 'NONE',  ( 3.851859888774453642E-32, 25.00000000000000000, 0.000000000000000000 ) ) ;
#65 = ADVANCED_FACE ( 'NONE', ( #31, #122 ), #5, .F. ) ;
#66 = DIRECTION ( 'NONE',  ( -1.000000000000000000, -1.387778780781445676E-16, 0.000000000000000000 ) ) ;
#67 = CIRCLE ( 'NONE', #6, 3.399999999999987033 ) ;
#68 = DESIGN_CONTEXT ( 'detailed design', #16, 'design' ) ;
#69 = APPROVAL_STATUS ( 'not_yet_approved' ) ;
#70 = COORDINATED_UNIVERSAL_TIME_OFFSET ( 1, 0, .AHEAD. ) ;
#71 = SECURITY_CLASSIFICATION_LEVEL ( 'unclassified' ) ;
#72 = PERSON_AND_ORGANIZATION ( #55, #44 ) ;
#73 = VERTEX_POINT ( 'NONE', #4 ) ;
#74 = CALENDAR_DATE ( 2023, 8, 9 ) ;
#75 = ADVANCED_FACE ( 'NONE', ( #116 ), #37, .F. ) ;
#76 = EDGE_LOOP ( 'NONE', ( #84 ) ) ;
#77 = PERSON_AND_ORGANIZATION_ROLE ( 'classification_officer' ) ;
#78 = PERSON_AND_ORGANIZATION ( #55, #44 ) ;
#79 = APPROVAL_DATE_TIME ( #132, #107 ) ;
#80 = DATE_AND_TIME ( #87, #101 ) ;
#81 = DIRECTION ( 'NONE',  ( 0.000000000000000000, 0.000000000000000000, -1.000000000000000000 ) ) ;
#82 = DIRECTION ( 'NONE',  ( -0.000000000000000000, -1.000000000000000000, -0.000000000000000000 ) ) ;
#83 =( NAMED_UNIT ( * ) SI_UNIT ( $, .STERADIAN. ) SOLID_ANGLE_UNIT ( ) );
#84 = ORIENTED_EDGE ( 'NONE', *, *, #125, .T. ) ;
#85 = LOCAL_TIME ( 9, 10, 43.00000000000000000, #70 ) ;
#86 = DIRECTION ( 'NONE',  ( 0.000000000000000000, 0.000000000000000000, 1.000000000000000000 ) ) ;
#87 = CALENDAR_DATE ( 2023, 8, 9 ) ;
#88 = PERSON_AND_ORGANIZATION_ROLE ( 'design_owner' ) ;
#89 = DATE_AND_TIME ( #110, #119 ) ;
#90 = DATE_TIME_ROLE ( 'creation_date' ) ;
#91 = EDGE_LOOP ( 'NONE', ( #12 ) ) ;
#92 = PERSON_AND_ORGANIZATION ( #55, #44 ) ;
#93 = PRODUCT_DEFINITION_SHAPE ( 'NONE', 'NONE',  #106 ) ;
#94 = APPROVAL_PERSON_ORGANIZATION ( #17, #48, #99 ) ;
#95 = APPROVAL_PERSON_ORGANIZATION ( #98, #107, #113 ) ;
#96 = SECURITY_CLASSIFICATION ( '', '', #71 ) ;
#97 = DIRECTION ( 'NONE',  ( 0.000000000000000000, 0.000000000000000000, -1.000000000000000000 ) ) ;
#98 = PERSON_AND_ORGANIZATION ( #55, #44 ) ;
#99 = APPROVAL_ROLE ( '' ) ;
#100 = FACE_OUTER_BOUND ( 'NONE', #59, .T. ) ;
#101 = LOCAL_TIME ( 9, 10, 43.00000000000000000, #130 ) ;
#102 = PRODUCT_RELATED_PRODUCT_CATEGORY ( 'detail', '', ( #114 ) ) ;
#103 = CARTESIAN_POINT ( 'NONE',  ( 0.000000000000000000, 0.000000000000000000, 0.000000000000000000 ) ) ;
#104 = AXIS2_PLACEMENT_3D ( 'NONE', #26, #82, #81 ) ;
#105 = DIRECTION ( 'NONE',  ( -0.000000000000000000, -1.000000000000000000, -0.000000000000000000 ) ) ;
#106 = PRODUCT_DEFINITION ( 'UNKNOWN', '', #10, #68 ) ;
#107 = APPROVAL ( #56, 'UNSPECIFIED' ) ;
#108 = CIRCLE ( 'NONE', #104, 3.399999999999985256 ) ;
#109 = COORDINATED_UNIVERSAL_TIME_OFFSET ( 1, 0, .AHEAD. ) ;
#110 = CALENDAR_DATE ( 2023, 8, 9 ) ;
#111 = CARTESIAN_POINT ( 'NONE',  ( 0.000000000000000000, 25.99999999999999645, -3.399999999999985256 ) ) ;
#112 = COORDINATED_UNIVERSAL_TIME_OFFSET ( 1, 0, .AHEAD. ) ;
#113 = APPROVAL_ROLE ( '' ) ;
#114 = PRODUCT ( '51050-240', '51050-240', '', ( #57 ) ) ;
#115 = PERSON_AND_ORGANIZATION_ROLE ( 'design_supplier' ) ;
#116 = FACE_OUTER_BOUND ( 'NONE', #52, .T. ) ;
#117 = CC_DESIGN_DATE_AND_TIME_ASSIGNMENT ( #49, #90, ( #106 ) ) ;
#118 = PERSON_AND_ORGANIZATION ( #55, #44 ) ;
#119 = LOCAL_TIME ( 9, 10, 43.00000000000000000, #112 ) ;
#120 = MANIFOLD_SOLID_BREP ( 'M8 Gewindebohrung3', #46 ) ;
#121 = AXIS2_PLACEMENT_3D ( 'NONE', #50, #34, #14 ) ;
#122 = FACE_OUTER_BOUND ( 'NONE', #91, .T. ) ;
#123 = DATE_AND_TIME ( #74, #21 ) ;
#124 =( NAMED_UNIT ( * ) PLANE_ANGLE_UNIT ( ) SI_UNIT ( $, .RADIAN. ) );
#125 = EDGE_CURVE ( 'NONE', #73, #73, #67, .T. ) ;
#126 = DIRECTION ( 'NONE',  ( -0.000000000000000000, -1.000000000000000000, -0.000000000000000000 ) ) ;
#127 = DIRECTION ( 'NONE',  ( -0.000000000000000000, -1.000000000000000000, -0.000000000000000000 ) ) ;
#128 = CC_DESIGN_APPROVAL ( #48, ( #10 ) ) ;
#129 = APPLICATION_CONTEXT ( 'configuration controlled 3d designs of mechanical parts and assemblies' ) ;
#130 = COORDINATED_UNIVERSAL_TIME_OFFSET ( 1, 0, .AHEAD. ) ;
#131 = CC_DESIGN_PERSON_AND_ORGANIZATION_ASSIGNMENT ( #118, #88, ( #114 ) ) ;
#132 = DATE_AND_TIME ( #53, #85 ) ;
#133 = CC_DESIGN_DATE_AND_TIME_ASSIGNMENT ( #123, #54, ( #96 ) ) ;
#134 = APPROVAL_DATE_TIME ( #89, #48 ) ;
#135 = AXIS2_PLACEMENT_3D ( 'NONE', #3, #127, #97 ) ;
ENDSEC;
END-ISO-10303-21;
